  0
SECTION
  2
HEADER
  9
$ACADVER
  1
AC1009
  9
$LIMMIN
 10
0.000000
 20
0.000000
  9
$LIMMAX
 10
50.051823
 20
30.269087
  0
ENDSEC
  0
SECTION
  2
TABLES
  0
TABLE
  2
LTYPE
 70
     4
  0
LTYPE
  2
CONTINUOUS
 70
     0
  3
Solid line
 72
    65
 73
     0
 40
0.000000
  0
LTYPE
  2
HIDDEN
 70
     0
  3
 _ _ _ _ _ _ _ _ _ _ _
 72
    65
 73
     2
 40
0.375000
 49
0.250000
 49
-0.125000
  0
LTYPE
  2
DASHED
 70
     0
  3
 ___ ___ ___ ___ ___ ___ ___ 
 72
    65
 73
     2
 40
0.750000
 49
0.500000
 49
-0.250000
  0
LTYPE
  2
CENTER
 70
     0
  3
___ _ ___ _ ___ _ ___
 72
    65
 73
     4
 40
2.000000
 49
1.250000
 49
-0.250000
 49
0.250000
 49
-0.250000
  0
LTYPE
  2
BORDER
 70
     0
  3
___ ___ . ___ ___ . ___ ___
 72
    65
 73
     6
 40
1.750000
 49
0.500000
 49
-0.250000
 49
0.500000
 49
-0.250000
 49
0.000000
 49
-0.250000
  0
LTYPE
  2
DOT
 70
     0
  3
.................
 72
    65
 73
     2
 40
0.250000
 49
0.000000
 49
-0.250000
  0
LTYPE
  2
DASHDOT
 70
     0
  3
__ . __ . __ . __
 72
    65
 73
     4
 40
1.000000
 49
0.500000
 49
-0.250000
 49
0.000000
 49
-0.250000
  0
LTYPE
  2
DIVIDE
 70
     0
  3
___ .. ___ .. ___ .. ___
 72
    65
 73
     6
 40
1.250000
 49
0.500000
 49
-0.250000
 49
0.000000
 49
-0.250000
 49
0.000000
 49
-0.250000
  0
ENDTAB
  0
TABLE
  2
LAYER
 70
     8
  0
LAYER
  2
BLACK
 70
     0
 62
     0
  6
CONTINUOUS
  0
LAYER
  2
WHITE
 70
     0
 62
     7
  6
CONTINUOUS
  0
LAYER
  2
RED
 70
     0
 62
     1
  6
CONTINUOUS
  0
LAYER
  2
YELLOW
 70
     0
 62
     2
  6
CONTINUOUS
  0
LAYER
  2
GREEN
 70
     0
 62
     3
  6
CONTINUOUS
  0
LAYER
  2
CYAN
 70
     0
 62
     4
  6
CONTINUOUS
  0
LAYER
  2
BLUE
 70
     0
 62
     5
  6
CONTINUOUS
  0
LAYER
  2
MAGENTA
 70
     0
 62
     6
  6
CONTINUOUS
  0
ENDTAB
  0
ENDSEC
  0
SECTION
  2
BLOCKS
  0
ENDSEC
  0
SECTION
  2
ENTITIES
  0
ARC
  8
WHITE
 10
5.781250
 20
23.188612
 30
0.000000
 40
5.781250
 50
107.945253
 51
252.054747
  6
CONTINUOUS
  0
LINE
  8
WHITE
 10
4.000000
 20
17.688612
 30
0.000000
 11
13.500000
 21
17.688612
 31
0.000000
  6
CONTINUOUS
  0
LINE
  8
WHITE
 10
13.500000
 20
17.688612
 30
0.000000
 11
14.000000
 21
18.188612
 31
0.000000
  6
CONTINUOUS
  0
LINE
  8
WHITE
 10
14.000000
 20
18.188612
 30
0.000000
 11
14.500000
 21
17.688612
 31
0.000000
  6
CONTINUOUS
  0
LINE
  8
WHITE
 10
14.500000
 20
17.688612
 30
0.000000
 11
17.527864
 21
17.688612
 31
0.000000
  6
CONTINUOUS
  0
ARC
  8
WHITE
 10
22.000000
 20
13.688612
 30
0.000000
 40
6.000000
 50
33.579134
 51
138.189685
  6
CONTINUOUS
  0
ARC
  8
WHITE
 10
29.498105
 20
18.666405
 30
0.000000
 40
3.000000
 50
-146.420866
 51
-136.847610
  6
CONTINUOUS
  0
LINE
  8
WHITE
 10
27.309493
 20
16.614582
 30
0.000000
 11
41.404137
 21
1.580294
 31
0.000000
  6
CONTINUOUS
  0
ARC
  8
WHITE
 10
45.051823
 20
5.000000
 30
0.000000
 40
5.000000
 50
-136.847610
 51
43.152390
  6
CONTINUOUS
  0
LINE
  8
WHITE
 10
48.699509
 20
8.419706
 30
0.000000
 11
40.984497
 21
16.649052
 31
0.000000
  6
CONTINUOUS
  0
ARC
  8
WHITE
 10
22.234561
 20
10.553079
 30
0.000000
 40
19.716009
 50
18.010363
 51
113.097597
  6
CONTINUOUS
  0
LINE
  8
WHITE
 10
14.500000
 20
28.688612
 30
0.000000
 11
14.000000
 21
28.188612
 31
0.000000
  6
CONTINUOUS
  0
LINE
  8
WHITE
 10
14.000000
 20
28.188612
 30
0.000000
 11
13.500000
 21
28.688612
 31
0.000000
  6
CONTINUOUS
  0
LINE
  8
WHITE
 10
13.500000
 20
28.688612
 30
0.000000
 11
4.000000
 21
28.688612
 31
0.000000
  6
CONTINUOUS
  0
LINE
  8
WHITE
 10
8.500000
 20
24.688612
 30
0.000000
 11
5.500000
 21
24.688612
 31
0.000000
  6
CONTINUOUS
  0
ARC
  8
WHITE
 10
5.500000
 20
23.188612
 30
0.000000
 40
1.500000
 50
90.000000
 51
270.000000
  6
CONTINUOUS
  0
LINE
  8
WHITE
 10
5.500000
 20
21.688612
 30
0.000000
 11
8.500000
 21
21.688612
 31
0.000000
  6
CONTINUOUS
  0
ARC
  8
WHITE
 10
8.500000
 20
23.188612
 30
0.000000
 40
1.500000
 50
-90.000000
 51
90.000000
  6
CONTINUOUS
  0
LINE
  8
WHITE
 10
40.879785
 20
7.257094
 30
0.000000
 11
42.931517
 21
5.068397
 31
0.000000
  6
CONTINUOUS
  0
ARC
  8
WHITE
 10
44.025866
 20
6.094263
 30
0.000000
 40
1.500000
 50
-136.850000
 51
43.150000
  6
CONTINUOUS
  0
LINE
  8
WHITE
 10
45.120215
 20
7.120129
 30
0.000000
 11
43.068483
 21
9.308826
 31
0.000000
  6
CONTINUOUS
  0
ARC
  8
WHITE
 10
41.974134
 20
8.282960
 30
0.000000
 40
1.500000
 50
43.150000
 51
223.150000
  6
CONTINUOUS
  0
ENDSEC
  0
EOF
